Forum

Metallica - Jump In...
 
Notifications
Clear all

Metallica - Jump In The Fire  


(@dan-t)
Illustrious Member
Joined: 17 years ago
Posts: 5074
Topic starter  

This one's pretty easy once you get the timing of the main riff down. Again, listen to the song to see how many times to play each part.

Dan
Metallica - Jump In The fire
Intro & chorus:

PM---------------- PM---------------- PM---------------- C Bb
E------------------|------------------|------------------|-----------|
B------------------|------------------|------------------|-----------|
G------------------|------------------|------------------|--5----3---|
D----------3-------|----------3-------|----------3-------|--5----3---|
A-----3-4----5-4-3-|-----3-4----5-4-3-|-----3-4----5-4-3-|--3----1---|
E-3-6--------------|-3-6--------------|-3-6--------------|-----------|

PM---------------- PM---------------- PM---------------- C Bb
E------------------|------------------|------------------|-----------|
B------------------|------------------|------------------|-----------|
G------------------|------------------|------------------|--5----3---|
D----------3-------|----------3-------|-3-------3--------|--5----3---|
A-----3-4----5-4-3-|-----3-4----5-4-3-|---5-4-3---5-4-3--|--3----1---|
E-3-6--------------|-3-6--------------|------------------|-----------|

PM---------------- PM---------------- PM---------------- PM-------------
E------------------|------------------|------------------|---------------|
B------------------|------------------|------------------|---------------|
G------------------|------------------|------------------|---------------|
D----------3-------|----------3-------|-3h5-3--3---------|-----------3-5-|
A-----3-4----5-4-3-|-----3-4----5-4-3-|-------5--5-4-3---|-----3-4-5-----|
E-3-6--------------|-3-6--------------|----------------6-|-3-6-----------|

PM---------------- PM---------------- PM---------------- C Bb
E------------------|------------------|------------------|-----------|
B------------------|------------------|------------------|-----------|
G------------------|------------------|------------------|--5----3---|
D----------3-------|----------3-------|-3-------3--------|--5----3---|
A-----3-4----5-4-3-|-----3-4----5-4-3-|---5-4-3---5-4-3--|--3----1---|
E-3-6--------------|-3-6--------------|------------------|-----------|

Verse:

PM---------- Bb F C C#
E----------------|---------------|-----------------|----------------|
B----------------|---------------|-----------------|----------------|
G--------------3-|-(3)-----------|---------------5-|-(5)--x-x-x--6--|
D--------------3-|-(3)--3--3--3--|---------------5-|-(5)--x-x-x--6--|
A--------------1-|-(1)--3--3--3--|---------------3-|-(3)--x-x-x--4--|
E-1-3-3-1-3-0----|------1--1--1--|--1-3-3-1-3-0----|----------------|

Interlude:

Bb Ab Bb G F
E-----------------|-------------|-----------------|-------------|
B-----------------|-------------|-----------------|-------------|
G-----------------|-------------|-----------------|-------------|
D--8-8-8-8-8--8-8-|-8-8-8--6--8-|--5-5-5-5-5--5-5-|-5-5-5--3--5-|
A--8-8-8-8-8--8-8-|-8-8-8--6--8-|--5-5-5-5-5--5-5-|-5-5-5--3--5-|
E--6-6-6-6-6--6-6-|-6-6-6--4--6-|--3-3-3-3-3--3-3-|-3-3-3--1--3-|

"The only way I know that guarantees no mistakes is not to play and that's simply not an option". David Hodge


Quote
(@vic-lewis-vl)
Illustrious Member
Joined: 17 years ago
Posts: 10340
 

Don't know the song, Dan, but it's well laid out and should be easy to follow. Thank you for your latest (this song & Seek And Destroy) contributions! A nice clear, easy-to-follow tab is more likely to make someone look up the song, even if they don't know it.

:D :D :D

Vic

"Sometimes the beauty of music can help us all find strength to deal with all the curves life can throw us." (D. Hodge.)


ReplyQuote
(@dan-t)
Illustrious Member
Joined: 17 years ago
Posts: 5074
Topic starter  

Thanks Vic. I used to be really into Metallica back in the day, and now my son & his friends are getting into them & wanting to play some Metallica tunes, so I did this one & Seek & Destroy for them to work on. It's cool to see the old music we liked become new with the next generation. 8)

Dan

"The only way I know that guarantees no mistakes is not to play and that's simply not an option". David Hodge


ReplyQuote
(@ghost)
Prominent Member
Joined: 16 years ago
Posts: 833
 

Alright! Thank you Dan T for having Jump In The Fire in the Easy Songs. I play around with the chorus when I'm noodling, now I can sit and learn the song, being that I'm into the old school Metallica to play on guitar. :D

"If I had a time machine, I'd go back and tell me to practise that bloody guitar!" -Vic LewisEverything is 42..... again.


ReplyQuote
(@dan-t)
Illustrious Member
Joined: 17 years ago
Posts: 5074
Topic starter  

Glad to help out, enjoy! :D

"The only way I know that guarantees no mistakes is not to play and that's simply not an option". David Hodge


ReplyQuote